Team SoloMid vs Liquid (1399 views)

dk cajunb
dk device
dk dupreeh
dk karrigan
dk Xyp9x
us adreN
us EliGe
us FugLy
us Hiko
us nitr0

FACEIT League 2015 Stage 3 Finals at DH Winter 2015
Group A - Opening Round
Best Of 1
Status:Finished
Get Button LinksHTML:
BBCode:
Game: csgo Counter-Strike: Global Offensive
Rating:
League: FACEIT League 2015 Stage 3 » Matchlink
Hosting: GamesTV.org
Manager: timbolina (Highadmin)
Maps: Not announced

Total Pot: € 5320
The bets are closed.

Broadcasted by

Video Streams
99Damage
By: timbolina
View on GamesTV (external)
Language: German
DreamHack CS:GO
By: timbolina
View on GamesTV (external)
Language: English
GameShow
By: szczurek
View on GamesTV (external)
Language: Russian
 
50000


Viewer Peak: 80,800

Comments



Device will get into their asses
16-0----------16-0----------------------------------16-0-16-0
16-0--------16-0---------------------------------16-0-------16-0
16-0-------16-0---------------------------------16-0---------16-0
16-0------16-0-16-0-------16-016-0------16-0-----------16-0
16-0-----16-0---16-0------16-016-0------16-0-----------16-0
16-0-----16-0----16-0------------------------16-0----------16-0
16-0-----16-0---16-0--------------------------16-0--------16-0
16-0------16-0-16-0------------------------------16-0-16-0
gg NA :))
You have € 85 on dk TSM
You won € 113.05

Climbing up slowly, but surely.
rekt